슬아 | Exquisite Lily Set

$199.00

Introducing Exquisite Lily Dress our elegant 2-piece set in pink, showcasing a single-breasted tweed coat with long sleeves and a high-waisted mini skirt in a solid-colored polyester fabric.

Collections: Bouclé Sets, Kameria Exhibit, New, New, Tweeded sets Vendors: SARINA SKU: 14:203196829#Pink 1;5:100014064#S
NOTE: Image effects and style might have slight variations due to lighting effects in the shown image
Shipping can sometimes be a hassle when you're shopping, but Sarina has you covered with all the shipping info you need, right here.
Standerd shipping cost is $7
Orders over $100 is Free shipping!!!
(1-2 weeks)

In our commitment to providing a seamless and delightful shopping experience, we've incorporated a Korean to US sizing chart, recognizing the global diversity of our valued customers. This addition reflects our dedication to ensuring that every individual can effortlessly find the perfect fit and embrace our styles with confidence, no matter their location or sizing preference.

Korean Size | US Size | Dual Size

----44----------------------0---------------XS------

----55----------------------2---------------XS/S---

----66----------------------4----------------S/M-----

----77----------------------6----------------S/M-----

----88----------------------8----------------M/L----

----99----------------------10--------------M/L----

----100--------------------12-------------L/XL----

----110--------------------14-------------L/XL----

if you need any more information regarding sizing, feel free to open the chat and we will get back to you as soon as possible

Join The Butterfly Effect

To get 20% off your first order

Shop